ISO-10303-21;
HEADER;
FILE_DESCRIPTION (( 'STEP AP203' ),
    '1' );
FILE_NAME ('AL-HD14-5.1x10-3 Äèñòàíöèîííàÿ âòóëêà 5.1x10-3.STEP',
    '2024-12-12T13:44:34',
    ( '' ),
    ( '' ),
    'SwSTEP 2.0',
    'SolidWorks 2021',
    '' );
FILE_SCHEMA (( 'CONFIG_CONTROL_DESIGN' ));
ENDSEC;

DATA;
#1 = DIRECTION ( 'NONE',  ( 0.000000000000000000, 0.000000000000000000, 1.000000000000000000 ) ) ;
#2 = CARTESIAN_POINT ( 'NONE',  ( 0.000000000000000000, 0.000000000000000000, 0.000000000000000000 ) ) ;
#3 = EDGE_CURVE ( 'NONE', #244, #121, #190, .T. ) ;
#4 = FACE_OUTER_BOUND ( 'NONE', #183, .T. ) ;
#5 = PERSON_AND_ORGANIZATION ( #131, #199 ) ;
#6 = APPROVAL ( #123, 'UNSPECIFIED' ) ;
#7 = LOCAL_TIME ( 16, 44, 34.00000000000000000, #127 ) ;
#8 = COORDINATED_UNIVERSAL_TIME_OFFSET ( 3, 0, .AHEAD. ) ;
#9 = DIRECTION ( 'NONE',  ( 0.000000000000000000, 0.000000000000000000, 1.000000000000000000 ) ) ;
#10 = LOCAL_TIME ( 16, 44, 34.00000000000000000, #130 ) ;
#11 = APPLICATION_PROTOCOL_DEFINITION ( 'international standard', 'config_control_design', 1994, #134 ) ;
#12 = PERSON_AND_ORGANIZATION ( #131, #199 ) ;
#13 = ADVANCED_BREP_SHAPE_REPRESENTATION ( 'AL-HD14-5.1x10-3 -ø¸ªðý¡øþýýð  òªºûúð 5.1x10-3', ( #52, #224 ), #191 ) ;
#14 = ORIENTED_EDGE ( 'NONE', *, *, #3, .F. ) ;
#15 = EDGE_CURVE ( 'NONE', #121, #96, #162, .T. ) ;
#16 = CARTESIAN_POINT ( 'NONE',  ( 0.000000000000000000, 0.000000000000000000, 3.000000000000000000 ) ) ;
#17 = EDGE_LOOP ( 'NONE', ( #59, #34 ) ) ;
#18 = DIRECTION ( 'NONE',  ( -0.000000000000000000, -0.000000000000000000, -1.000000000000000000 ) ) ;
#19 = DIRECTION ( 'NONE',  ( 0.000000000000000000, 0.000000000000000000, 1.000000000000000000 ) ) ;
#20 = PLANE ( 'NONE',  #113 ) ;
#21 = AXIS2_PLACEMENT_3D ( 'NONE', #84, #22, #210 ) ;
#22 = DIRECTION ( 'NONE',  ( -0.000000000000000000, -0.000000000000000000, -1.000000000000000000 ) ) ;
#23 =( NAMED_UNIT ( * ) SI_UNIT ( $, .STERADIAN. ) SOLID_ANGLE_UNIT ( ) );
#24 = DATE_AND_TIME ( #43, #171 ) ;
#25 = DIRECTION ( 'NONE',  ( 1.000000000000000000, 0.000000000000000000, 0.000000000000000000 ) ) ;
#26 = APPROVAL_DATE_TIME ( #149, #182 ) ;
#27 = CIRCLE ( 'NONE', #227, 5.000000000000000000 ) ;
#28 = APPLICATION_PROTOCOL_DEFINITION ( 'international standard', 'config_control_design', 1994, #129 ) ;
#29 = PERSON_AND_ORGANIZATION ( #131, #199 ) ;
#30 = CC_DESIGN_APPROVAL ( #201, ( #50 ) ) ;
#31 = EDGE_CURVE ( 'NONE', #166, #173, #247, .T. ) ;
#32 = EDGE_LOOP ( 'NONE', ( #39, #222, #156, #14 ) ) ;
#33 = ORIENTED_EDGE ( 'NONE', *, *, #31, .F. ) ;
#34 = ORIENTED_EDGE ( 'NONE', *, *, #157, .F. ) ;
#35 = AXIS2_PLACEMENT_3D ( 'NONE', #16, #119, #226 ) ;
#36 = DIRECTION ( 'NONE',  ( -0.000000000000000000, -0.000000000000000000, -1.000000000000000000 ) ) ;
#37 = ADVANCED_FACE ( 'NONE', ( #83 ), #228, .T. ) ;
#38 = ORIENTED_EDGE ( 'NONE', *, *, #151, .F. ) ;
#39 = ORIENTED_EDGE ( 'NONE', *, *, #110, .F. ) ;
#40 = AXIS2_PLACEMENT_3D ( 'NONE', #98, #246, #172 ) ;
#41 = DIRECTION ( 'NONE',  ( -1.000000000000000000, 0.000000000000000000, 0.000000000000000000 ) ) ;
#42 = PERSON_AND_ORGANIZATION ( #131, #199 ) ;
#43 = CALENDAR_DATE ( 2024, 12, 12 ) ;
#44 = PLANE ( 'NONE',  #221 ) ;
#45 =( LENGTH_UNIT ( ) NAMED_UNIT ( * ) SI_UNIT ( .MILLI., .METRE. ) );
#46 = PERSON_AND_ORGANIZATION ( #131, #199 ) ;
#47 = PERSON_AND_ORGANIZATION_ROLE ( 'classification_officer' ) ;
#48 = AXIS2_PLACEMENT_3D ( 'NONE', #208, #19, #174 ) ;
#49 = ADVANCED_FACE ( 'NONE', ( #207 ), #242, .F. ) ;
#50 = PRODUCT_DEFINITION ( 'UNKNOWN', '', #66, #92 ) ;
#51 = PRODUCT_DEFINITION_SHAPE ( 'NONE', 'NONE',  #50 ) ;
#52 = MANIFOLD_SOLID_BREP ( 'Áîáûøêà-Âûòÿíóòü1', #169 ) ;
#53 = VERTEX_POINT ( 'NONE', #99 ) ;
#54 = CARTESIAN_POINT ( 'NONE',  ( 5.000000000000000000, 6.123233995736766282E-16, 3.000000000000000000 ) ) ;
#55 = ORIENTED_EDGE ( 'NONE', *, *, #80, .F. ) ;
#56 = EDGE_CURVE ( 'NONE', #53, #96, #170, .T. ) ;
#57 = CIRCLE ( 'NONE', #206, 2.549999999999999822 ) ;
#58 = DIRECTION ( 'NONE',  ( 0.000000000000000000, 0.000000000000000000, 1.000000000000000000 ) ) ;
#59 = ORIENTED_EDGE ( 'NONE', *, *, #15, .F. ) ;
#60 = CARTESIAN_POINT ( 'NONE',  ( 0.000000000000000000, 0.000000000000000000, 0.000000000000000000 ) ) ;
#61 = SECURITY_CLASSIFICATION_LEVEL ( 'unclassified' ) ;
#62 = CC_DESIGN_PERSON_AND_ORGANIZATION_ASSIGNMENT ( #46, #68, ( #50 ) ) ;
#63 = AXIS2_PLACEMENT_3D ( 'NONE', #209, #58, #76 ) ;
#64 = DIRECTION ( 'NONE',  ( 0.000000000000000000, 0.000000000000000000, 1.000000000000000000 ) ) ;
#65 = DIRECTION ( 'NONE',  ( 1.000000000000000000, 0.000000000000000000, 0.000000000000000000 ) ) ;
#66 = PRODUCT_DEFINITION_FORMATION_WITH_SPECIFIED_SOURCE ( 'ANY', '', #203, .NOT_KNOWN. ) ;
#67 = CARTESIAN_POINT ( 'NONE',  ( 0.000000000000000000, 0.000000000000000000, 0.000000000000000000 ) ) ;
#68 = PERSON_AND_ORGANIZATION_ROLE ( 'creator' ) ;
#69 = PERSON_AND_ORGANIZATION ( #131, #199 ) ;
#70 = CALENDAR_DATE ( 2024, 12, 12 ) ;
#71 = VERTEX_POINT ( 'NONE', #140 ) ;
#72 = CC_DESIGN_PERSON_AND_ORGANIZATION_ASSIGNMENT ( #5, #47, ( #188 ) ) ;
#73 = VECTOR ( 'NONE', #120, 1000.000000000000000 ) ;
#74 = ORIENTED_EDGE ( 'NONE', *, *, #80, .T. ) ;
#75 = ORIENTED_EDGE ( 'NONE', *, *, #15, .T. ) ;
#76 = DIRECTION ( 'NONE',  ( 1.000000000000000000, 0.000000000000000000, 0.000000000000000000 ) ) ;
#77 = CIRCLE ( 'NONE', #48, 5.000000000000000000 ) ;
#78 = ORIENTED_EDGE ( 'NONE', *, *, #217, .T. ) ;
#79 = APPROVAL_PERSON_ORGANIZATION ( #42, #6, #197 ) ;
#80 = EDGE_CURVE ( 'NONE', #118, #173, #57, .T. ) ;
#81 = CARTESIAN_POINT ( 'NONE',  ( 2.549999999999999822, 3.122849337825750419E-16, 3.000000000000000000 ) ) ;
#82 = EDGE_LOOP ( 'NONE', ( #135, #187 ) ) ;
#83 = FACE_OUTER_BOUND ( 'NONE', #32, .T. ) ;
#84 = CARTESIAN_POINT ( 'NONE',  ( 0.000000000000000000, 0.000000000000000000, 3.000000000000000000 ) ) ;
#85 = DIRECTION ( 'NONE',  ( 1.000000000000000000, 0.000000000000000000, -0.000000000000000000 ) ) ;
#86 = CARTESIAN_POINT ( 'NONE',  ( 0.000000000000000000, 0.000000000000000000, 3.000000000000000000 ) ) ;
#87 = VECTOR ( 'NONE', #153, 1000.000000000000000 ) ;
#88 = CYLINDRICAL_SURFACE ( 'NONE', #167, 5.000000000000000000 ) ;
#89 = CALENDAR_DATE ( 2024, 12, 12 ) ;
#90 = EDGE_CURVE ( 'NONE', #166, #71, #132, .T. ) ;
#91 =( NAMED_UNIT ( * ) PLANE_ANGLE_UNIT ( ) SI_UNIT ( $, .RADIAN. ) );
#92 = DESIGN_CONTEXT ( 'detailed design', #134, 'design' ) ;
#93 = CIRCLE ( 'NONE', #184, 2.549999999999999822 ) ;
#94 = CC_DESIGN_PERSON_AND_ORGANIZATION_ASSIGNMENT ( #12, #220, ( #66 ) ) ;
#95 = EDGE_LOOP ( 'NONE', ( #78, #152, #55, #38 ) ) ;
#96 = VERTEX_POINT ( 'NONE', #204 ) ;
#97 = AXIS2_PLACEMENT_3D ( 'NONE', #108, #195, #25 ) ;
#98 = CARTESIAN_POINT ( 'NONE',  ( 0.000000000000000000, 0.000000000000000000, 0.000000000000000000 ) ) ;
#99 = CARTESIAN_POINT ( 'NONE',  ( 5.000000000000000000, 6.123233995736766282E-16, 3.000000000000000000 ) ) ;
#100 = EDGE_CURVE ( 'NONE', #244, #53, #27, .T. ) ;
#101 = CARTESIAN_POINT ( 'NONE',  ( -5.000000000000000000, 0.000000000000000000, 3.000000000000000000 ) ) ;
#102 = PRODUCT_RELATED_PRODUCT_CATEGORY ( 'detail', '', ( #203 ) ) ;
#103 = DIRECTION ( 'NONE',  ( 0.000000000000000000, 0.000000000000000000, 1.000000000000000000 ) ) ;
#104 = ORIENTED_EDGE ( 'NONE', *, *, #198, .T. ) ;
#105 = FACE_BOUND ( 'NONE', #133, .T. ) ;
#106 = FACE_OUTER_BOUND ( 'NONE', #17, .T. ) ;
#107 = CC_DESIGN_APPROVAL ( #6, ( #188 ) ) ;
#108 = CARTESIAN_POINT ( 'NONE',  ( 0.000000000000000000, 0.000000000000000000, 3.000000000000000000 ) ) ;
#109 = PERSON_AND_ORGANIZATION ( #131, #199 ) ;
#110 = EDGE_CURVE ( 'NONE', #53, #244, #77, .T. ) ;
#111 = SHAPE_DEFINITION_REPRESENTATION ( #51, #13 ) ;
#112 = APPROVAL_STATUS ( 'not_yet_approved' ) ;
#113 = AXIS2_PLACEMENT_3D ( 'NONE', #86, #238, #215 ) ;
#114 = COORDINATED_UNIVERSAL_TIME_OFFSET ( 3, 0, .AHEAD. ) ;
#115 = PERSON_AND_ORGANIZATION_ROLE ( 'design_owner' ) ;
#116 = CIRCLE ( 'NONE', #243, 5.000000000000000000 ) ;
#117 = CC_DESIGN_PERSON_AND_ORGANIZATION_ASSIGNMENT ( #69, #115, ( #203 ) ) ;
#118 = VERTEX_POINT ( 'NONE', #230 ) ;
#119 = DIRECTION ( 'NONE',  ( -0.000000000000000000, -0.000000000000000000, -1.000000000000000000 ) ) ;
#120 = DIRECTION ( 'NONE',  ( -0.000000000000000000, -0.000000000000000000, -1.000000000000000000 ) ) ;
#121 = VERTEX_POINT ( 'NONE', #176 ) ;
#122 = CARTESIAN_POINT ( 'NONE',  ( 0.000000000000000000, 0.000000000000000000, 0.000000000000000000 ) ) ;
#123 = APPROVAL_STATUS ( 'not_yet_approved' ) ;
#124 = FACE_OUTER_BOUND ( 'NONE', #186, .T. ) ;
#125 = APPROVAL_ROLE ( '' ) ;
#126 = ADVANCED_FACE ( 'NONE', ( #106, #105 ), #44, .F. ) ;
#127 = COORDINATED_UNIVERSAL_TIME_OFFSET ( 3, 0, .AHEAD. ) ;
#128 = LOCAL_TIME ( 16, 44, 34.00000000000000000, #114 ) ;
#129 = APPLICATION_CONTEXT ( 'configuration controlled 3d designs of mechanical parts and assemblies' ) ;
#130 = COORDINATED_UNIVERSAL_TIME_OFFSET ( 3, 0, .AHEAD. ) ;
#131 = PERSON ( 'UNSPECIFIED', 'UNSPECIFIED', 'UNSPECIFIED', ('UNSPECIFIED'), ('UNSPECIFIED'), ('UNSPECIFIED') ) ;
#132 = CIRCLE ( 'NONE', #63, 2.549999999999999822 ) ;
#133 = EDGE_LOOP ( 'NONE', ( #74, #104 ) ) ;
#134 = APPLICATION_CONTEXT ( 'configuration controlled 3d designs of mechanical parts and assemblies' ) ;
#135 = ORIENTED_EDGE ( 'NONE', *, *, #217, .F. ) ;
#136 = CC_DESIGN_DATE_AND_TIME_ASSIGNMENT ( #200, #196, ( #50 ) ) ;
#137 = CARTESIAN_POINT ( 'NONE',  ( 0.000000000000000000, 0.000000000000000000, 0.000000000000000000 ) ) ;
#138 = ORIENTED_EDGE ( 'NONE', *, *, #151, .T. ) ;
#139 = DIRECTION ( 'NONE',  ( 1.000000000000000000, 0.000000000000000000, 0.000000000000000000 ) ) ;
#140 = CARTESIAN_POINT ( 'NONE',  ( -2.549999999999999822, 0.000000000000000000, 3.000000000000000000 ) ) ;
#141 = CYLINDRICAL_SURFACE ( 'NONE', #21, 2.549999999999999822 ) ;
#142 = DATE_AND_TIME ( #89, #10 ) ;
#143 = APPROVAL_PERSON_ORGANIZATION ( #161, #201, #194 ) ;
#144 = CARTESIAN_POINT ( 'NONE',  ( 2.549999999999999822, 3.122849337825750419E-16, 3.000000000000000000 ) ) ;
#145 = APPROVAL_STATUS ( 'not_yet_approved' ) ;
#146 = CC_DESIGN_DATE_AND_TIME_ASSIGNMENT ( #142, #212, ( #188 ) ) ;
#147 = CALENDAR_DATE ( 2024, 12, 12 ) ;
#148 = VECTOR ( 'NONE', #18, 1000.000000000000000 ) ;
#149 = DATE_AND_TIME ( #70, #128 ) ;
#150 = ORIENTED_EDGE ( 'NONE', *, *, #56, .F. ) ;
#151 = EDGE_CURVE ( 'NONE', #71, #118, #159, .T. ) ;
#152 = ORIENTED_EDGE ( 'NONE', *, *, #31, .T. ) ;
#153 = DIRECTION ( 'NONE',  ( -0.000000000000000000, -0.000000000000000000, -1.000000000000000000 ) ) ;
#154 = ORIENTED_EDGE ( 'NONE', *, *, #90, .T. ) ;
#155 = EDGE_LOOP ( 'NONE', ( #239, #240 ) ) ;
#156 = ORIENTED_EDGE ( 'NONE', *, *, #157, .T. ) ;
#157 = EDGE_CURVE ( 'NONE', #96, #121, #116, .T. ) ;
#158 = DIRECTION ( 'NONE',  ( 1.000000000000000000, 0.000000000000000000, 0.000000000000000000 ) ) ;
#159 = LINE ( 'NONE', #175, #211 ) ;
#160 = DIRECTION ( 'NONE',  ( -0.000000000000000000, -0.000000000000000000, -1.000000000000000000 ) ) ;
#161 = PERSON_AND_ORGANIZATION ( #131, #199 ) ;
#162 = CIRCLE ( 'NONE', #40, 5.000000000000000000 ) ;
#163 = CARTESIAN_POINT ( 'NONE',  ( 0.000000000000000000, 0.000000000000000000, 3.000000000000000000 ) ) ;
#164 = MECHANICAL_CONTEXT ( 'NONE', #129, 'mechanical' ) ;
#165 = COORDINATED_UNIVERSAL_TIME_OFFSET ( 3, 0, .AHEAD. ) ;
#166 = VERTEX_POINT ( 'NONE', #144 ) ;
#167 = AXIS2_PLACEMENT_3D ( 'NONE', #163, #249, #41 ) ;
#168 = CARTESIAN_POINT ( 'NONE',  ( 0.000000000000000000, 0.000000000000000000, 3.000000000000000000 ) ) ;
#169 = CLOSED_SHELL ( 'NONE', ( #49, #37, #241, #126, #237, #205 ) ) ;
#170 = LINE ( 'NONE', #54, #73 ) ;
#171 = LOCAL_TIME ( 16, 44, 34.00000000000000000, #8 ) ;
#172 = DIRECTION ( 'NONE',  ( 1.000000000000000000, 0.000000000000000000, 0.000000000000000000 ) ) ;
#173 = VERTEX_POINT ( 'NONE', #177 ) ;
#174 = DIRECTION ( 'NONE',  ( 1.000000000000000000, 0.000000000000000000, 0.000000000000000000 ) ) ;
#175 = CARTESIAN_POINT ( 'NONE',  ( -2.549999999999999822, 0.000000000000000000, 3.000000000000000000 ) ) ;
#176 = CARTESIAN_POINT ( 'NONE',  ( -5.000000000000000000, 0.000000000000000000, 0.000000000000000000 ) ) ;
#177 = CARTESIAN_POINT ( 'NONE',  ( 2.549999999999999822, 3.122849337825750419E-16, 0.000000000000000000 ) ) ;
#178 = DATE_AND_TIME ( #147, #245 ) ;
#179 = CC_DESIGN_SECURITY_CLASSIFICATION ( #188, ( #66 ) ) ;
#180 = UNCERTAINTY_MEASURE_WITH_UNIT (LENGTH_MEASURE( 1.000000000000000082E-05 ), #45, 'distance_accuracy_value', 'NONE');
#181 = CALENDAR_DATE ( 2024, 12, 12 ) ;
#182 = APPROVAL ( #145, 'UNSPECIFIED' ) ;
#183 = EDGE_LOOP ( 'NONE', ( #150, #225, #185, #75 ) ) ;
#184 = AXIS2_PLACEMENT_3D ( 'NONE', #60, #64, #214 ) ;
#185 = ORIENTED_EDGE ( 'NONE', *, *, #3, .T. ) ;
#186 = EDGE_LOOP ( 'NONE', ( #33, #154, #138, #248 ) ) ;
#187 = ORIENTED_EDGE ( 'NONE', *, *, #90, .F. ) ;
#188 = SECURITY_CLASSIFICATION ( '', '', #61 ) ;
#189 = CARTESIAN_POINT ( 'NONE',  ( 0.000000000000000000, 0.000000000000000000, 3.000000000000000000 ) ) ;
#190 = LINE ( 'NONE', #101, #87 ) ;
#191 =( GEOMETRIC_REPRESENTATION_CONTEXT ( 3 ) GLOBAL_UNCERTAINTY_ASSIGNED_CONTEXT ( ( #180 ) ) GLOBAL_UNIT_ASSIGNED_CONTEXT ( ( #45, #91, #23 ) ) REPRESENTATION_CONTEXT ( 'NONE', 'WORKASPACE' ) );
#192 = CC_DESIGN_PERSON_AND_ORGANIZATION_ASSIGNMENT ( #109, #233, ( #66 ) ) ;
#193 = FACE_BOUND ( 'NONE', #82, .T. ) ;
#194 = APPROVAL_ROLE ( '' ) ;
#195 = DIRECTION ( 'NONE',  ( 0.000000000000000000, 0.000000000000000000, 1.000000000000000000 ) ) ;
#196 = DATE_TIME_ROLE ( 'creation_date' ) ;
#197 = APPROVAL_ROLE ( '' ) ;
#198 = EDGE_CURVE ( 'NONE', #173, #118, #93, .T. ) ;
#199 = ORGANIZATION ( 'UNSPECIFIED', 'UNSPECIFIED', '' ) ;
#200 = DATE_AND_TIME ( #181, #7 ) ;
#201 = APPROVAL ( #112, 'UNSPECIFIED' ) ;
#202 = DIRECTION ( 'NONE',  ( -1.000000000000000000, 0.000000000000000000, 0.000000000000000000 ) ) ;
#203 = PRODUCT ( 'AL-HD14-5.1x10-3 Äèñòàíöèîííàÿ âòóëêà 5.1x10-3', 'AL-HD14-5.1x10-3 Äèñòàíöèîííàÿ âòóëêà 5.1x10-3', '', ( #164 ) ) ;
#204 = CARTESIAN_POINT ( 'NONE',  ( 5.000000000000000000, 6.123233995736766282E-16, 0.000000000000000000 ) ) ;
#205 = ADVANCED_FACE ( 'NONE', ( #124 ), #141, .F. ) ;
#206 = AXIS2_PLACEMENT_3D ( 'NONE', #137, #103, #158 ) ;
#207 = FACE_OUTER_BOUND ( 'NONE', #95, .T. ) ;
#208 = CARTESIAN_POINT ( 'NONE',  ( 0.000000000000000000, 0.000000000000000000, 3.000000000000000000 ) ) ;
#209 = CARTESIAN_POINT ( 'NONE',  ( 0.000000000000000000, 0.000000000000000000, 3.000000000000000000 ) ) ;
#210 = DIRECTION ( 'NONE',  ( -1.000000000000000000, 0.000000000000000000, 0.000000000000000000 ) ) ;
#211 = VECTOR ( 'NONE', #160, 1000.000000000000000 ) ;
#212 = DATE_TIME_ROLE ( 'classification_date' ) ;
#213 = CIRCLE ( 'NONE', #97, 2.549999999999999822 ) ;
#214 = DIRECTION ( 'NONE',  ( 1.000000000000000000, 0.000000000000000000, 0.000000000000000000 ) ) ;
#215 = DIRECTION ( 'NONE',  ( 1.000000000000000000, 0.000000000000000000, -0.000000000000000000 ) ) ;
#216 = CARTESIAN_POINT ( 'NONE',  ( -5.000000000000000000, 0.000000000000000000, 3.000000000000000000 ) ) ;
#217 = EDGE_CURVE ( 'NONE', #71, #166, #213, .T. ) ;
#218 = APPROVAL_DATE_TIME ( #24, #6 ) ;
#219 = APPROVAL_DATE_TIME ( #178, #201 ) ;
#220 = PERSON_AND_ORGANIZATION_ROLE ( 'creator' ) ;
#221 = AXIS2_PLACEMENT_3D ( 'NONE', #122, #1, #85 ) ;
#222 = ORIENTED_EDGE ( 'NONE', *, *, #56, .T. ) ;
#223 = DIRECTION ( 'NONE',  ( 0.000000000000000000, 0.000000000000000000, 1.000000000000000000 ) ) ;
#224 = AXIS2_PLACEMENT_3D ( 'NONE', #2, #9, #65 ) ;
#225 = ORIENTED_EDGE ( 'NONE', *, *, #100, .F. ) ;
#226 = DIRECTION ( 'NONE',  ( -1.000000000000000000, 0.000000000000000000, 0.000000000000000000 ) ) ;
#227 = AXIS2_PLACEMENT_3D ( 'NONE', #189, #223, #139 ) ;
#228 = CYLINDRICAL_SURFACE ( 'NONE', #235, 5.000000000000000000 ) ;
#229 = APPROVAL_PERSON_ORGANIZATION ( #29, #182, #125 ) ;
#230 = CARTESIAN_POINT ( 'NONE',  ( -2.549999999999999822, 0.000000000000000000, 0.000000000000000000 ) ) ;
#231 = DIRECTION ( 'NONE',  ( 0.000000000000000000, 0.000000000000000000, 1.000000000000000000 ) ) ;
#232 = CC_DESIGN_APPROVAL ( #182, ( #66 ) ) ;
#233 = PERSON_AND_ORGANIZATION_ROLE ( 'design_supplier' ) ;
#234 = DIRECTION ( 'NONE',  ( 1.000000000000000000, 0.000000000000000000, 0.000000000000000000 ) ) ;
#235 = AXIS2_PLACEMENT_3D ( 'NONE', #168, #36, #202 ) ;
#236 = FACE_OUTER_BOUND ( 'NONE', #155, .T. ) ;
#237 = ADVANCED_FACE ( 'NONE', ( #4 ), #88, .T. ) ;
#238 = DIRECTION ( 'NONE',  ( 0.000000000000000000, 0.000000000000000000, 1.000000000000000000 ) ) ;
#239 = ORIENTED_EDGE ( 'NONE', *, *, #100, .T. ) ;
#240 = ORIENTED_EDGE ( 'NONE', *, *, #110, .T. ) ;
#241 = ADVANCED_FACE ( 'NONE', ( #236, #193 ), #20, .T. ) ;
#242 = CYLINDRICAL_SURFACE ( 'NONE', #35, 2.549999999999999822 ) ;
#243 = AXIS2_PLACEMENT_3D ( 'NONE', #67, #231, #234 ) ;
#244 = VERTEX_POINT ( 'NONE', #216 ) ;
#245 = LOCAL_TIME ( 16, 44, 34.00000000000000000, #165 ) ;
#246 = DIRECTION ( 'NONE',  ( 0.000000000000000000, 0.000000000000000000, 1.000000000000000000 ) ) ;
#247 = LINE ( 'NONE', #81, #148 ) ;
#248 = ORIENTED_EDGE ( 'NONE', *, *, #198, .F. ) ;
#249 = DIRECTION ( 'NONE',  ( -0.000000000000000000, -0.000000000000000000, -1.000000000000000000 ) ) ;
ENDSEC;
END-ISO-10303-21;
